Welcome to Our Video Page!

So you were wondering if any of these tabs are playable. Well some are hard and some may not sound quite the same but all recognizable and make for cool versions of the song in themselves. Choose an artist on the left and underneath that artists' photo you'll find a link to the song that contains the video of "yours truly" playing the tab!

Saturday, May 30, 2009

R Kelly-When a Woman's Fed Up

video


R. KELLY-WHEN A WOMAN'S FED UP

E--3-------------10-----------------
B--3-----------11-------------------
G--3---------12--------0-2-3-2-0----
D--3-----------------------------3--
A--5--------------------------------
E--3--------------------------------

E--1-------------5-----1------------
B--1-----------6-------1------------
G--2---------7---------2------------
D--0-------------------3------------
A----------------------3-----0------
E----------------------1------------

R Kelly




When a Woman's Fed Up

Tuesday, January 20, 2009